0
SECTION
2
HEADER
9
$INSUNITS
70
4
9
$ACADVER
1
AC1014
9
$HANDSEED
5
FFFF
0
ENDSEC
0
SECTION
2
TABLES
0
TABLE
2
VPORT
5
8
100
AcDbSymbolTable
0
ENDTAB
0
TABLE
2
LTYPE
5
5
100
AcDbSymbolTable
0
LTYPE
5
14
100
AcDbSymbolTableRecord
100
AcDbLinetypeTableRecord
2
BYBLOCK
70
0
0
LTYPE
5
15
100
AcDbSymbolTableRecord
100
AcDbLinetypeTableRecord
2
BYLAYER
70
0
0
ENDTAB
0
TABLE
2
LAYER
5
2
100
AcDbSymbolTable
70
2
0
LAYER
5
50
100
AcDbSymbolTableRecord
100
AcDbLayerTableRecord
2
0
70
0
6
CONTINUOUS
0
ENDTAB
0
TABLE
2
STYLE
5
3
100
AcDbSymbolTable
70
1
0
STYLE
5
11
100
AcDbSymbolTableRecord
100
AcDbTextStyleTableRecord
2
STANDARD
70
0
0
ENDTAB
0
TABLE
2
VIEW
5
6
100
AcDbSymbolTable
70
0
0
ENDTAB
0
TABLE
2
UCS
5
7
100
AcDbSymbolTable
70
0
0
ENDTAB
0
TABLE
2
APPID
5
9
100
AcDbSymbolTable
70
2
0
APPID
5
12
100
AcDbSymbolTableRecord
100
AcDbRegAppTableRecord
2
ACAD
70
0
0
ENDTAB
0
TABLE
2
DIMSTYLE
5
A
100
AcDbSymbolTable
70
1
0
ENDTAB
0
TABLE
2
BLOCK_RECORD
5
1
100
AcDbSymbolTable
70
1
0
BLOCK_RECORD
5
1F
100
AcDbSymbolTableRecord
100
AcDbBlockTableRecord
2
*MODEL_SPACE
0
BLOCK_RECORD
5
1B
100
AcDbSymbolTableRecord
100
AcDbBlockTableRecord
2
*PAPER_SPACE
0
ENDTAB
0
ENDSEC
0
SECTION
2
BLOCKS
0
BLOCK
5
20
100
AcDbEntity
100
AcDbBlockBegin
2
*MODEL_SPACE
0
ENDBLK
5
21
100
AcDbEntity
100
AcDbBlockEnd
0
BLOCK
5
1C
100
AcDbEntity
100
AcDbBlockBegin
2
*PAPER_SPACE
0
ENDBLK
5
1D
100
AcDbEntity
100
AcDbBlockEnd
0
ENDSEC
0
SECTION
2
ENTITIES
0
LINE
5
100
100
AcDbEntity
8
0
100
AcDbLine
10
0
20
0
30
0
11
0
21
30
31
0
0
LINE
5
101
100
AcDbEntity
8
0
100
AcDbLine
10
0
20
30
30
0
11
10.5
21
30
31
0
0
LINE
5
102
100
AcDbEntity
8
0
100
AcDbLine
10
0
20
0
30
0
11
10.5
21
1.2858791391047212e-15
31
0
0
LINE
5
103
100
AcDbEntity
8
0
100
AcDbLine
10
10.5
20
1.2858791391047212e-15
30
0
11
10.500000000000004
21
-10
31
0
0
LINE
5
104
100
AcDbEntity
8
0
100
AcDbLine
10
10.500000000000004
20
-10
30
0
11
40
21
-10
31
0
0
LINE
5
105
100
AcDbEntity
8
0
100
AcDbLine
10
10.5
20
30
30
0
11
10.5
21
39.79160028970297
31
0
0
LINE
5
106
100
AcDbEntity
8
0
100
AcDbLine
10
210
20
105.59999999999999
30
0
11
210
21
240
31
0
0
ARC
5
107
100
AcDbEntity
8
0
100
AcDbCircle
10
40
20
172.80000000000001
30
0
40
182.80000000000001
100
AcDbArc
50
270
51
338.43140426487474
0
ARC
5
108
100
AcDbEntity
8
0
100
AcDbCircle
10
185.57808260160496
20
239.99582317996473
30
0
40
34.516961223927524
100
AcDbArc
50
73.836403917731076
51
193.39417502196682
0
LWPOLYLINE
5
109
100
AcDbEntity
8
0
100
AcDbPolyline
90
4
70
1
43
0.0
10
189.72588692882138
20
121.23841460877048
10
177.62148576455516
20
83.103621561343175
42
-1.0036214783680406
10
158.79353839358257
20
89.849225369362301
10
170.89735211446356
20
127.98216768236534
42
-0.99551804350547557
0
LWPOLYLINE
5
110
100
AcDbEntity
8
0
100
AcDbPolyline
90
4
70
1
43
0.0
10
109.47213595499959
20
31.055728090000848
10
78.452181223787449
20
15.096184391873994
42
-0.99999999999999989
10
69.30291627593364
20
32.879260767648034
10
100.52786404500038
20
48.944271909999138
42
-0.99999999999999989
0
LINE
5
111
100
AcDbEntity
8
0
100
AcDbLine
10
195
20
200
30
0
11
195.57808260140723
21
239.99588605494506
31
0
0
LINE
5
112
100
AcDbEntity
8
0
100
AcDbLine
10
175.57808260180281
20
239.99588608230951
30
0
11
175
21
200
31
0
0
ARC
5
113
100
AcDbEntity
8
0
100
AcDbCircle
10
185
20
200.00000064178306
30
0
40
10.00000000000002
100
AcDbArc
50
180.00000362225481
51
359.99999637774522
0
ARC
5
114
100
AcDbEntity
8
0
100
AcDbCircle
10
185.57808260160496
20
239.99582317996473
30
0
40
9.9999999999999538
100
AcDbArc
50
0.00036024695473599208
51
179.99963959626464
0
LINE
5
115
100
AcDbEntity
8
0
100
AcDbLine
10
132.78040269974449
20
98.950402913387222
30
0
11
132.78040269974449
21
80
31
0
0
LINE
5
116
100
AcDbEntity
8
0
100
AcDbLine
10
132.78040269974449
20
80
30
0
11
123.48040269974449
21
80
31
0
0
LINE
5
117
100
AcDbEntity
8
0
100
AcDbLine
10
123.48040269974449
20
80
30
0
11
123.4804026997445
21
87.519315782377802
31
0
0
ARC
5
118
100
AcDbEntity
8
0
100
AcDbCircle
10
9.1999999999999886
20
196.70888606730816
30
0
40
156.9226706878602
100
AcDbArc
50
270.47466287087843
51
316.3144644399095
0
ARC
5
119
100
AcDbEntity
8
0
100
AcDbCircle
10
9.1999999999999886
20
196.70888606730816
30
0
40
156.92267068786015
100
AcDbArc
50
-37.618515616824617
51
2.3195136761447506
0
LINE
5
120
100
AcDbEntity
8
0
100
AcDbLine
10
123.4804026997445
20
87.519315782377802
30
0
11
122.67730136328268
21
88.322417118839638
31
0
0
LINE
5
121
100
AcDbEntity
8
0
100
AcDbLine
10
133.4972592972554
20
100.92310472685315
30
0
11
132.78040269974449
21
98.950402913387222
31
0
0
SPLINE
5
122
100
AcDbEntity
8
0
100
AcDbSpline
70
12
71
2
41
1
41
2.9999999999999645
41
1
72
6
73
3
74
0
42
0.000000001
43
0.0000000001
44
0.0000000001
40
0
40
0
40
0
40
3.2278991835251603
40
3.2278991835251603
40
3.2278991835251603
10
165.99409910477905
20
203.05987510298786
30
0
10
158.58858154788157
20
222.7408982108625
30
0
10
152.0000022649765
20
232.0000034570694
30
0
0
SPLINE
5
123
100
AcDbEntity
8
0
100
AcDbSpline
70
12
71
2
41
1
41
3.000000000000016
41
1
72
6
73
3
74
0
42
0.000000001
43
0.0000000001
44
0.0000000001
40
0
40
0
40
0
40
3.8287470239726584
40
3.8287470239726584
40
3.8287470239726584
10
210
20
240
30
0
10
207.48583873500979
20
264.9856823299728
30
0
10
195.18694566624737
20
273.14835494963609
30
0
0
ENDSEC
0
SECTION
2
OBJECTS
0
DICTIONARY
5
C
100
AcDbDictionary
3
ACAD_GROUP
350
D
3
ACAD_MLINESTYLE
350
17
0
DICTIONARY
5
D
100
AcDbDictionary
0
DICTIONARY
5
1A
330
C
100
AcDbDictionary
0
DICTIONARY
5
17
100
AcDbDictionary
0
ENDSEC
0
EOF
